A B C D E F G H I J K L M N O P Q R S T U V W X Y Z 1-9
А Б В Г Д Е Ж З И К Л М Н О П Р С Т У Ф Х Ц Ч Ш Щ Э Ю Я
Borracho Y Agresivo

-----------------------------------------------------
borracho y agresivo / dos minutos
-----------------------------------------------------

tabbed by carlos pino

intro x2
G]---------------------------------------------------------------------------
D]---------------------------------------------------------------------------
A]-------------7-7-7-7-------9-7-----------------------------------------
E]--5-5-5-5------------5-5-----------------------------------------------

x2
G]---------------------------------------------------------------------------
D]---------------------------------------------------------------------------
A]-9-9--5-5---------------------------------------------------------------
E]--------------5-5-5-5-5-5-5-------------------------------------------

verse
G]---------------------------------------------------------------------------
D]---------------------------------------------------------------------------
A]-----------7-7-7-7----------7-7-7-7----------7-7-7-7----------7-7-7-7
E]-5-5-5-5----------5-5-5-5----------5-5-5-5----------5-5-5-5----------

verse 2 x4
G]---------------------------------------------------------------------------
D]---------------------------------------------------------------------------
A]-9-9-9---5-5-5---------------------------------------------------------
E]------------------5-5-5-5-5-5-5---------------------------------------

verse
verse 2
verse
verse 2
intro
verse
verse 2
verse
verse2
intro

©2007-2015 Пуск!by | contextus@mail.ru