A B C D E F G H I J K L M N O P Q R S T U V W X Y Z 1-9
А Б В Г Д Е Ж З И К Л М Н О П Р С Т У Ф Х Ц Ч Ш Щ Э Ю Я
Cancion De Amor

-----------------------------------------------
cancion de amor / dos minutos
-----------------------------------------------

tabbed by carlos pino

intro x2
G]---------------------------------------------------------------------------
D]---------------------------------------------------------------------------
A]--------------------3-3-3-3-3-3-3-------------------6-6-6-6-6-6-6
E]-3-3-3-3-3-3-3--------------------6-6-6-6-6-6-6------------------

verse x8
G]---------------------------------------------------------------------------
D]---------------------------------------------------------------------------
A]-------------------3-3-3-3-3-3-3------------------6-6-6-6-6-6-6--
E]-3-3-3-3-3-3-3------------------6-6-6-6-6-6-6--------------------

coro x2
G]---------------------------------------------------------------------------
D]---------------------------------------------------------------------------
A]--------------------3-3-3-3-3-3-3-------------------------------------
E]-1-1-1-1-1-1-1--------------------------------------------------------
cerveza , yo te quiero

G]---------------------------------------------------------------------------
D]---------------------------------------------------------------------------
A]-5-5-5-5-5-5-5-5-5-5-5-5-5-5-5----------------------------------
E]---------------------------------------------------------------------------
cerveza , yo te adoro

verse
coro
X2
G]-----------------------------------------------------------------------------
D]-----------------------------------------------------------------------------
A]--------------------3-3-3-3-3-3-3------------------6-6-6-6-6-6-6---
E]--3-3-3-3-3-3-3------------------6-6-6-6-6-6-6---------------------
NA-NA-NA-NA-NA-NA...
X2
G]-------------------------------------------------------------------------------
D]-------------------------------------------------------------------------------
A]--------------3-3-3-3-3-------------6-6-6-6-6--------------------------
E]-3-3-3-3-3-------------6-6-6-6-6---------------------------------------

verse x2

©2007-2015 Пуск!by | contextus@mail.ru