A B C D E F G H I J K L M N O P Q R S T U V W X Y Z 1-9
А Б В Г Д Е Ж З И К Л М Н О П Р С Т У Ф Х Ц Ч Ш Щ Э Ю Я
Los Chukis

--------------------------------------
los chukis / dos minutos
--------------------------------------

tabbed by carlos pino

intro
G]---------------------------------------------------------------------------
D]---------------------------------------------------------------------------
A]----------------5-5-----------------------------------------------------------
E]-3------5-------------------------------------------------------------------

verse ( no estoy nada seguro)
G]---------------------------------------------------------------------------
D]---------------------------------------------------------------------------
A]-5---------5----------5-------------------------------------------------------
E]------3----------3----------3-------------------------------------------------
el sol abrazo el barrio...

coro
G]--------------------------------------------------------------------------- # = hartas veces
D]---------------------------------------------------------------------------
A]-5#--------------------------------------------------------------------------
E]-----------3#-------5#---------------------------------------------------------

intro
verse
coro
intro
verse
coro
intro

©2007-2015 Пуск!by | contextus@mail.ru