A B C D E F G H I J K L M N O P Q R S T U V W X Y Z 1-9
А Б В Г Д Е Ж З И К Л М Н О П Р С Т У Ф Х Ц Ч Ш Щ Э Ю Я
Los Ladrones

-----------------------------------------
los ladrones / dos minutos
-----------------------------------------

tabbed by carlos pino

intro
G]---------------------------------------------------------------------------
D]---------------------------------------------------------------------------
A]-1-1-1-----------6-6-6-------------------------------------------------
E]----------3-3-3-----------1-1-1----------------------------------------

verse x8
G]---------------------------------------------------------------------------
D]---------------------------------------------------------------------------
A]-1-1-1------------------6-6-6------------------------------------------
E]---------3-3-3--1-1-1--------------------------------------------------

verse 2 x = hartas veces
G]---------------------------------------------------------------------------
D]---------------------------------------------------------------------------
A]-6#---------------1#---6#----1#--------------------------------------
E]----------1#--------------------------------------------------------------

verse
verse 2

outro
G]---------------------------------------------------------------------------
D]---------------------------------------------------------------------------
A]--1#----------1#---------------------------------------------------------
E]---------1#----------1#--------------------------------------------------

verse
verse 2

©2007-2015 Пуск!by | contextus@mail.ru