A B C D E F G H I J K L M N O P Q R S T U V W X Y Z 1-9
А Б В Г Д Е Ж З И К Л М Н О П Р С Т У Ф Х Ц Ч Ш Щ Э Ю Я
Novedades

---------------------------------------
novedades / dos minutos
---------------------------------------

tabbed by carlos pino

intro x3
G]---------------------------------------------------------------------------
D]---------------------------------------------------------------------------
A]-6-6-6-6-6-6-6-3-3-3-3-3-3-3-------------------------------------
E]--------------------------------------4-4-4-4-4-4-4--6-6-6-6-6-6-6

verse x14
G]---------------------------------------------------------------------------
D]---------------------------------------------------------------------------
A]-6-6-6-6-6-6-6--3-3-3-3-3-3-3--------------------------------------
E]----------------------------------------4-4-4-4-4-4-4-6-6-6-6-6-6-6

G]---------------------------------------------------------------------------
D]---------------------------------------------------------------------------
A]--6-6-6-6-6-6-6.....-------------------------------------------
E]---------------------------------------------------------------------------

©2007-2015 Пуск!by | contextus@mail.ru