A B C D E F G H I J K L M N O P Q R S T U V W X Y Z 1-9
А Б В Г Д Е Ж З И К Л М Н О П Р С Т У Ф Х Ц Ч Ш Щ Э Ю Я
Pelea Callejera

--------------------------------------------
pelea callejera / dos minutos
--------------------------------------------

tabbed by Carlos Pino

verse
G]---------------------------------------------------------------------------
D]---------------------------------------------------------------------------
A]------------------4-4-4-4-4-4--6-6-6-6-6-6------------------------
E]--4-4-4-4-4-4---------------------------------------------------------

G]---------------------------------------------------------------------------
D]---------------------------------------------------------------------------
A]--------------------------------4-4-4-4-4-4---------------------------
E]-4-4-4-4-4-4----------------------------------------------------------

G]---------------------------------------------------------------------------
D]---------------------------------------------------------------------------
A]--6-6-6-6-6-6----------------------------------------------------------
E]-----------------------------------4-4-4-4-4-4-------------------------

G]---------------------------------------------------------------------------
D]---------------------------------------------------------------------------
A]--4-4-4-4-4-4----------------6-6-6-6-6-6--------------------------
E]---------------------------------------------------------------------------

coro
G]---------------------------------------------------------------------------
D]---------------------------------------------------------------------------
A]--------------------------4-4-4-4-4-4----------------------------------
E]-4-4-4-4-4-4-----------------------------------------------------------

G]---------------------------------------------------------------------------
D]---------------------------------------------------------------------------
A]--6-6-6-6-6-6---------------------------------------------------------
E]----------------------------4-4-4-4-4-4--------------------------------

verse
coro

©2007-2015 Пуск!by | contextus@mail.ru