A B C D E F G H I J K L M N O P Q R S T U V W X Y Z 1-9
А Б В Г Д Е Ж З И К Л М Н О П Р С Т У Ф Х Ц Ч Ш Щ Э Ю Я
Todo Lo Miro

----------------------------------------
todo lo miro / dos minutos
----------------------------------------

tabbed by carlos pino

intro x2
G]---------------------------------------------------------------------------
D]---------------------------------------------------------------------------
A]----5-(x13)-------------------------------------------------------------
E]----------------3-3-3-3-3-----7-7---5-5-5-5--3-2-----------------
x4
G]---------------------------------------------------------------------------
D]---------------------------------------------------------------------------
A]---5-(x13)--------------------------------------------------------------
E]----------------3-3-3-3--5-5-5-5-------------------------------------
hoy es cinco del mes...

coro x2
G]---------------------------------------------------------------------------
D]---------------------------------------------------------------------------
A]--5-(x13)---------------------------------------------------------------
E]----------------3-3-3-3---5-5-5-5------------------------------------

bridge x2
G]---------------------------------------------------------------------------
D]---------------------------------------------------------------------------
A]-5-(x13)----------------------------------------------------------------
E]-----------3-3-3-3-3----7-7--5-5-5-5--3-2------------------------
x4
G]---------------------------------------------------------------------------
D]---------------------------------------------------------------------------
A]--5-(x13)---------------------------------------------------------------
E]--------------3-3-3-3---5-5-5-5--------------------------------------
han pasado cuatro horas...

coro x2

x4
G]---------------------------------------------------------------------------
D]---------------------------------------------------------------------------
A]----------------------------3-3-3-3-------------------------------------
E]--1-(x13)----6-6-6-6-------------------------------------------------
moralidad paso por la...


coro x2

©2007-2015 Пуск!by | contextus@mail.ru