A B C D E F G H I J K L M N O P Q R S T U V W X Y Z 1-9
А Б В Г Д Е Ж З И К Л М Н О П Р С Т У Ф Х Ц Ч Ш Щ Э Ю Я
Star Damage

author/artist: earthtone9
title: star damage (for beginners)
album: arc' tan' gent
transcribed by: oz
email: oz@earthtone9.com
-|----------------------------------------------------------------------------
-|----------------------------------------------------------------------------
-|----------------------------------------------------------------------------
-|----------------------------------------------------------------------------
-|----------------------------------------------------------------------------
-|-0-0-12p0-13p0-0-12p0-13p0-12p0-0-13h15-0-0-12p0-13p0-0-12p0-13p0-0-18b-----
gtr 1 - intro
-|----------------------------------|------------|-----------|----------------
-|----------------------------------|------------|-----------|----------------
-|----------------------------------|------------|-----------|----------------
-|----------------------------------|------------|-----------|-2--------------
-|----------------------------------|------------|-3/6-5-----|-2--------------
-|-0-0-12p0-13p0-0-12p0-13p0-12p0-0-|-13h15------|-1/4-3-----|-0--------------
gtr 1&2 - verse 1st time 2nd time last time
-|--------------------|--------------------|----------------------------------
-|--------------------|--------------------|----------------------------------
-|-9--9--9--9--9--12--|-10-----------------|-9--------------------------------
-|-x--x--x--x--x--x---|-x------------------|-x--------------------------------
-|-7--8--7--8--7--10--|-8--5h7p5-----------|-7--5h7p5-------------------------
-|--------------------|----------6-5-3-5---|----------6-5-3-5-----------------
gtr 1 - chorus 1st time 2nd time
-|-------------------|---------------------|----------------------------------
-|-------------------|---------------------|----------------------------------
-|-9--5--9--5--9--3--|-5-------------------|----------------------------------
-|-9--5--9--5--9--5--|-5-------------------|-2--------------------------------
-|-7--3--7--3--7--5--|-3--5h7p5------------|-2--5h7p5-------------------------
-|-------------------|----------6-5-3-5----|-0--------6-5-3-5-----------------
gtr 2 - chorus 1st time 2nd time
-|-----------------------------------|-0--0--0--------------------------------
-|-----------------------------------|-5--6--15-------------------------------
-|-14--13--10--14--13--9b-r----------|-4--5--14-------------------------------
-|-x---x---x---x---x---x-------------|----------------------------------------
-|-12--11--8---12--11--7-------------|----------------------------------------
-|-----------------------------------|----------------------------------------
gtr 1 - midsection
-|------------------------|-------------------------0-0----------10-10--------
-|------------------------|--12-12--13-13--12-12-123/5v---12-12-13b15--------
-|--14-13-14----14-13-13--|--x--x---x--x---x--x--x---------x------------------
-|--x--x--x-----x--x--x---|--14b16--15b17--14b16r14--------14b16--------------
-|--12-11-12----12-11-11--|---------------------------------------------------
-|------------------------|---------------------------------------------------
gtr - 2 pre-solo x4 gtr - 2 solo

-|--12-12--17v-19v------------------------------------------------------------
-|--15b17--17v-17v------------------------------------------------------------
-|----------------------------------------------------------------------------
-|----------------------------------------------------------------------------
-|----------------------------------------------------------------------------
-|----------------------------------------------------------------------------
gtr - 2 solo cont'd

©2007-2015 Пуск!by | contextus@mail.ru