A B C D E F G H I J K L M N O P Q R S T U V W X Y Z 1-9
А Б В Г Д Е Ж З И К Л М Н О П Р С Т У Ф Х Ц Ч Ш Щ Э Ю Я
Blue Blood

-------------------------------------------------------------------------------
BLUE BLOOD - X JAPAN
-------------------------------------------------------------------------------

Tabbed By : Patrik
e-mail: nekarushi@hotmail.com

Tuning:

G|--------------------------------------------|
D|--------------------------------------------|
A|--6--7-7-7-6--4-4-4-5-6--7-7-9-7-6-7-6-4-6--|
E|--------------------------------------------|

G|-----------------------------------------15-|
D|-----------------------------------------13-|
A|--6--7-7-7-6--4-4-4-5-6--7-7-9-7-6-7-6-4----|
E|--------------------------------------------|

©2007-2015 Пуск!by | contextus@mail.ru