A B C D E F G H I J K L M N O P Q R S T U V W X Y Z 1-9
А Б В Г Д Е Ж З И К Л М Н О П Р С Т У Ф Х Ц Ч Ш Щ Э Ю Я
Standing Sex

GUITAR1

E-------------|
B-------------|
G-------------|
D---|--9--11--------------|
A---|--9--11--------------|
E-------------|



-----------------------------------------|
-----------------------------------------|
-----------------------------------------|
--9--11--------------|--9--11--------------|--9--11--------------|
--9--11--------------|--9--11--------------|--9--11--------------|
-----------------------------------------|



----------------------------------------------|
----------------------------------------------|
--------------------------9--|--11--11----11b-11--9-------|
--11--11----9--11--9--11--9--|--11--11----11b-11--9----9--|
--11--11----9--11--9--11-------------------9--|
----------------------------------------------|



-----------------------------------------------|
-----------------------------------------------|
--------------------------9--|--11--11----11--11b---11--9--|
--11--11----9--11--9--11--9--|--11--11----11--11b---11--9--|
--11--11----9--11--9--11-----------------------|
-----------------------------------------------|



----------------------------------------------|
----------------------------------------------|
--------------------------9--|--11--11----11b-11--9-------|
--11--11----9--11--9--11--9--|--11--11----11b-11--9----9--|
--11--11----9--11--9--11-------------------9--|
----------------------------------------------|



-----------------------------------------------|
-----------------------------------------------|
--------------------------9--|--11--11----11--11b---11--9--|
--11--11----9--11--9--11--9--|--11--11----11--11b---11--9--|
--11--11----9--11--9--11-----------------------|
-----------------------------------------------|



----------------------------------------------|
----------------------------------------------|
--------------------------9--|--11--11----11b-11--9-------|
--11--11----9--11--9--11--9--|--11--11----11b-11--9----9--|
--11--11----9--11--9--11-------------------9--|
----------------------------------------------|



-----------------------------------------------|
-----------------------------------------------|
--------------------------9--|--11--11----11--11b---11--9--|
--11--11----9--11--9--11--9--|--11--11----11--11b---11--9--|
--11--11----9--11--9--11-----------------------|
-----------------------------------------------|



----------------------------------------------|
----------------------------------------------|
--------------------------9--|--11--11----11b-11--9-------|
--11--11----9--11--9--11--9--|--11--11----11b-11--9----9--|
--11--11----9--11--9--11-------------------9--|
----------------------------------------------|



-----------------------------------------------|
-----------------------------------------------|
--------------------------9--|--11--11----11--11b---11--9--|
--11--11----9--11--9--11--9--|--11--11----11--11b---11--9--|
--11--11----9--11--9--11-----------------------|
-----------------------------------------------|



-----------------------------------------------------------------|
-----------------------------------------------------------------|
------------------------------------------------|--11--11----11b-11--9-------|
------------------------------------------------|--11--11----11b-11--9----9--|
--11--11-11-11-11-11-11-11-11-11-11-11-11-11-11---------------9--|
--9---9--9--9--9--9--9--9--9--9--9--9--9--9--9-------------------|



---------------------------------------------------------------|
---------------------------------------------------------------|
------------------------------------------------|--9--9----9--11--9----11--|
------------------------------------------------|--9--9----9--11--9----11--|
--11--11-11-11-11-11-11-11-11-11-11-11-11-11-11----------------|
--9---9--9--9--9--9--9--9--9--9--9--9--9--9--9-----------------|



-----------------------------------------------------------------|
-----------------------------------------------------------------|
------------------------------------------------|--11--11----11b-11--9-------|
------------------------------------------------|--11--11----11b-11--9----9--|
--11--11-11-11-11-11-11-11-11-11-11-11-11-11-11---------------9--|
--9---9--9--9--9--9--9--9--9--9--9--9--9--9--9-------------------|



---------------------------------------------------------------|
---------------------------------------------------------------|
------------------------------------------------|--9--9----9--11--9----11--|
------------------------------------------------|--9--9----9--11--9----11--|
--11--11-11-11-11-11-11-11-11-11-11-11-11-11-11----------------|
--9---9--9--9--9--9--9--9--9--9--9--9--9--9--9-----------------|



----------------------------------------------|
----------------------------------------------|
--------------------------9--|--11--11----11b-11--9-------|
--11--11----9--11--9--11--9--|--11--11----11b-11--9----9--|
--11--11----9--11--9--11-------------------9--|
----------------------------------------------|



-----------------------------------------------|
-----------------------------------------------|
--------------------------9--|--11--11----11--11b---11--9--|
--11--11----9--11--9--11--9--|--11--11----11--11b---11--9--|
--11--11----9--11--9--11-----------------------|
-----------------------------------------------|



----------------------------------------------|
----------------------------------------------|
--------------------------9--|--11--11----11b-11--9-------|
--11--11----9--11--9--11--9--|--11--11----11b-11--9----9--|
--11--11----9--11--9--11-------------------9--|
----------------------------------------------|



-----------------------------------------------|
-----------------------------------------------|
--------------------------9--|--11--11----11--11b---11--9--|
--11--11----9--11--9--11--9--|--11--11----11--11b---11--9--|
--11--11----9--11--9--11-----------------------|
-----------------------------------------------|



-----------------------------------------------------------------|
-----------------------------------------------------------------|
------------------------------------------------|--11--11----11b-11--9-------|
------------------------------------------------|--11--11----11b-11--9----9--|
--11--11-11-11-11-11-11-11-11-11-11-11-11-11-11---------------9--|
--9---9--9--9--9--9--9--9--9--9--9--9--9--9--9-------------------|



---------------------------------------------------------------|
---------------------------------------------------------------|
------------------------------------------------|--9--9----9--11--9----11--|
------------------------------------------------|--9--9----9--11--9----11--|
--11--11-11-11-11-11-11-11-11-11-11-11-11-11-11----------------|
--9---9--9--9--9--9--9--9--9--9--9--9--9--9--9-----------------|



-----------------------------------------------------------------|
-----------------------------------------------------------------|
------------------------------------------------|--11--11----11b-11--9-------|
------------------------------------------------|--11--11----11b-11--9----9--|
--11--11-11-11-11-11-11-11-11-11-11-11-11-11-11---------------9--|
--9---9--9--9--9--9--9--9--9--9--9--9--9--9--9-------------------|



-------------------------------------------------------------|
-------------------------------------------------------------|
-------------------------------------------------------------|
------------------------------------------------|--7--7----7--9--7----9--|
--11--11-11-11-11-11-11-11-11-11-11-11-11-11-11-|--7--7----7--9--7----9--|
--9---9--9--9--9--9--9--9--9--9--9--9--9--9--9---------------|



--------------------------------------------|
--------------------------------------------|
--------------------------------------------|
--------11----------11--12--|--------11----------9--10--|
--------11----------11--12--|--------11----------9--10--|
--9--9--------9--9----------|--9--9--------9--9---------|



----------------------------------------------|
----------------------------------------------|
----------------------------------------------|
--------11----------11--12--|--------11-------12--12--12--|
--------11----------11--12--|--------11-------12--12--12--|
--9--9--------9--9----------|--9--9--------9--------------|



----------------------------------------------------|
----------------------------------------------------|
----------------------------------------------------|
----------11------------11--12--|----------11------------9--10--|
----------11------------11--12--|----------11------------9--10--|
--9-9-9-9-------9-9-9-9---------|--9-9-9-9-------9-9-9-9--------|



-------------------------------------------------------|
-------------------------------------------------------|
-------------------------------------------------------|
----------11------------11--12--|-----11------11---9---8-----------|
----------11------------11--12--|-----11------11---9---8--4--------|
--9-9-9-9-------9-9-9-9---------|--9----------9----7---6--|--5-----------------|



-----------------------------------------|
-----------------------------------------|
-----------------------------------------|
------------------------------------9----|
-----------6------------------|--9--------11---------|
--7-----------------|--9--------12-------------------|



--------------------------------------|
--------------------------------------|
--------------------------------------|
--7-----------------|--9-------------9------------|
-----------7--------9---------|--x----------------|
--------------------------------------|



------------------------------------------------|
------------------------------------------------|
-----------------------------------|--9--9----8--9--8----9--|
------------------|--11--11----9--11--9----11--|--9--9----8--9--8----9--|
------------------|--11--11----9--11--9----11---------------|
------------------------------------------------|



------------------------------------------|
------------------------------------------|
-------------9--8-------------------------|
--9--9----9--9--8----9--|--11--11----9--11--9--9--10--|
--9--9----9----------9--|--11--11----9--11--9--9--10--|
------------------------------------------|



------------------------------------------------------|
------------------------------------------------------|
----------------------------|--9--9----8--9--8----9----9--8-------|
--11--11----9--11--9----11--|--9--9----8--9--8----9--|--9--9----9--9--8----9--|
--11--11----9--11--9----11---------------|--9--9----9----------9--|
------------------------------------------------------|



-------------------------------------------|
-------------------------------------------|
-------------------------------------------|
---------7-----------9----|--11--11----9--11--9----11--|
---------7-----------9----|--11--11----9--11--9----11--|
--5--5-5------7--7-7-----------------------|



-------------------------------------------------------|
-------------------------------------------------------|
--9--9----8--9--8----9----9--8-------------------------|
--9--9----8--9--8----9--|--9--9----9--9--8----9--|--11--11----9--11--9--9--10--|
------------------------|--9--9----9----------9--|--11--11----9--11--9--9--10--|
-------------------------------------------------------|



------------------------------------------------------|
------------------------------------------------------|
----------------------------|--9--9----8--9--8----9----9--8-------|
--11--11----9--11--9----11--|--9--9----8--9--8----9--|--9--9----9--9--8----9--|
--11--11----9--11--9----11---------------|--9--9----9----------9--|
------------------------------------------------------|



-------------------------------------------------------|
-------------------------------------------------------|
-----------------------------------9--|--11--11----11b-11--9-------|
--7--------9--------|--11--11----9--11--9--11--9--|--11--11----11b-11--9----9--|
--7--------9--------|--11--11----9--11--9--11-------------------9--|
--5--------7-------------------------------------------|



-----------------------------------------------|
-----------------------------------------------|
--------------------------9--|--11--11----11--11b---11--9--|
--11--11----9--11--9--11--9--|--11--11----11--11b---11--9--|
--11--11----9--11--9--11-----------------------|
-----------------------------------------------|



----------------------------------------------|
----------------------------------------------|
--------------------------9--|--11--11----11b-11--9-------|
--11--11----9--11--9--11--9--|--11--11----11b-11--9----9--|
--11--11----9--11--9--11-------------------9--|
----------------------------------------------|



--------------------------------------------------------|
--------------------------------------------------------|
--------------------------9-----------------------------|
--11--11----9--11--9--11--9--|--11-11--12-12--13-13--14-14--15--16--|
--11--11----9--11--9--11-----|--11-11--12-12--13-13--14-14--15--16--|
--------------------------------------------------------|



----------------------------------------|
--x-------------------------------------|
----------------------------------------|
----------------------------------------|
----------------------------------------|
----------------------------------------|



-------------------------------------------|
------------13---13---13--|--12r-----------------------|
--12b---------------------|--12r-------10--12r--10-----|
---------------------------------------12--|
-------------------------------------------|
-------------------------------------------|



--------------------------13h10-12h10------------------------|
----------10--13h10-12h10-------------13h10-|--15--15b---15h13-15--------|
--10--12b----------------------------------------------------|
-------------------------------------------------------------|
-------------------------------------------------------------|
-------------------------------------------------------------|



--15b-------15------15--|--------13h15h13----13--13--------|
------------------------|--13h15----------15---------------|
-----------------------------------------------|
-----------------------------------------------|
-----------------------------------------------|
-----------------------------------------------|



---------------------------------------------------------------|
--13-15-13-15-13-15-13-15-13-15-13-15-15----|--12b--12-----------------10--|
--------------------------------------------|--12b--12---------10--12------|
-----------------------------------------------12--------------|
---------------------------------------------------------------|
---------------------------------------------------------------|



------10--13h10-10-10-15h10-10-10-16h10-10-10-|
--13b-----------------------------------------|
----------------------------------------------|
----------------------------------------------|
----------------------------------------------|
----------------------------------------------|



--15h10-10-10-13h10-10-10-15h10-10-10-13h10-10-10-|
--------------------------------------------------|
--------------------------------------------------|
--------------------------------------------------|
--------------------------------------------------|
--------------------------------------------------|



------10--13h10-10-10-15h10-10-10-16h10-10-10-|
--13b-----------------------------------------|
----------------------------------------------|
----------------------------------------------|
----------------------------------------------|
----------------------------------------------|



--17h10-10-10-16h10-10-10-15h10-10-10-13h10-10-10-|
--------------------------------------------------|
--------------------------------------------------|
--------------------------------------------------|
--------------------------------------------------|
--------------------------------------------------|



------10--13h10-10-10-15h10-10-10-16h10-10-10-|
--13b-----------------------------------------|
----------------------------------------------|
----------------------------------------------|
----------------------------------------------|
----------------------------------------------|



--15h10-10-10-13h10-10-10-15h10-10-10-13h10-10-10-|
--------------------------------------------------|
--------------------------------------------------|
--------------------------------------------------|
--------------------------------------------------|
--------------------------------------------------|



----------------------------------------------------------|
--1-2-3-4-5-6-7-8-9-10-11-12-13-14-15--|--13b---14b-15b---14--15--16--|
---------------------------------------|--15b---16b-17b---------------|
----------------------------------------------------------|
----------------------------------------------------------|
----------------------------------------------------------|



--12--------12---14---15--|--12--------12---14---15--|
--15b------------------------------------|
-----------------------------------------|
-----------------------------------------|
-----------------------------------------|
-----------------------------------------|



--19---17---15--14---15---17--|--15---14---12------------|
-----------------------------------15--------|
---------------------------------------------|
---------------------------------------------|
---------------------------------------------|
---------------------------------------------|



--12--------12---14---15--|--12--------12---14---15--|
--15b------------------------------------|
-----------------------------------------|
-----------------------------------------|
-----------------------------------------|
-----------------------------------------|



--19--------19---19b--19--|--17---15---14------------|
-------------------------------15--------|
-----------------------------------------|
-----------------------------------------|
-----------------------------------------|
-----------------------------------------|



-------------------------------------------------|
------------------------------|--12----------------------12--|
--12--11--------14--12----11--|------14----12--12--14--------|
------------14-----------------------------------|
-------------------------------------------------|
-------------------------------------------------|



-----------------------------------11---12---14--|
-------------------------------12----------------|
--12--11--------14--12----11--|-------11---------------------|
------------14----------------|--13--------------------------|
-------------------------------------------------|
-------------------------------------------------|



--12------------14--12--------|--15--14----12--12--14----15--|
------15----13------------15---------------------|
-------------------------------------------------|
-------------------------------------------------|
-------------------------------------------------|
-------------------------------------------------|



------------------------------------------|
--13--------15----16----|--17----------------|--17----------------|
--15b-------17b---18b---|--19b---------------|--19b---------------|
------------------------------------------|
------------------------------------------|
------------------------------------------|



-----------------------18--18--18--------------------|
--17----------------|--17----------21b-21b-21b-------------------|
--19b---------------|--19b---------------------------------------|
-----------------------------------|----------7------------7--8--|
-----------------------------------|----------7------------7--8--|
-----------------------------------|--5-5-5-5------5-5-5-5-------|



-----------------------------------------------|
-----------------------------------------------|
-----------------------------------------------|
----------7------------5--6--|----------7------------7--8--|
----------7------------5--6--|----------7------------7--8--|
--5-5-5-5------5-5-5-5-------|--5-5-5-5------5-5-5-5-------|



-------------------------------------------------|
-------------------------------------------------|
-------------------------------|----------12--11----10----9--|
----------------------9----10--|--11--11--12--11----10----9--|
----------------------9----10--|--11--11---------------------|
--5-5-5-5-5-5-5-5-5-5----------------------------|



-----------------------------------------------|
-----------------------------------------------|
----------12--11----10----9--|----------12--11----10----9--|
--11--11--12--11----10----9--|--11--11--12--11----10----9--|
--11--11---------------------|--11--11---------------------|
-----------------------------------------------|



-----------------------------------------------|
-----------------------------------------------|
----------12--11----10----9-----------------9--|
--11--11--12--11----10----9--|--11--11----9--11--9--11--9--|
--11--11---------------------|--11--11----9--11--9--11-----|
-----------------------------------------------|



----------------------------------------------|
----------------------------------------------|
--11--11----11b-11--9----------------------9--|
--11--11----11b-11--9----9--|--11--11----9--11--9--11--9--|
-------------------------9--|--11--11----9--11--9--11-----|
----------------------------------------------|



-----------------------------------------------|
-----------------------------------------------|
--11--11----11--11b---11--9-----------------9--|
--11--11----11--11b---11--9--|--11--11----9--11--9--11--9--|
-----------------------------|--11--11----9--11--9--11-----|
-----------------------------------------------|



----------------------------------------------|
----------------------------------------------|
--11--11----11b-11--9----------------------9--|
--11--11----11b-11--9----9--|--11--11----9--11--9--11--9--|
-------------------------9--|--11--11----9--11--9--11-----|
----------------------------------------------|



-----------------------------------------------|
-----------------------------------------------|
--11--11----11--11b---11--9-----------------9--|
--11--11----11--11b---11--9--|--11--11----9--11--9--11--9--|
-----------------------------|--11--11----9--11--9--11-----|
-----------------------------------------------|



----------------------------------------------|
----------------------------------------------|
--11--11----11b-11--9----------------------9--|
--11--11----11b-11--9----9--|--11--11----9--11--9--11--9--|
-------------------------9--|--11--11----9--11--9--11-----|
----------------------------------------------|



------------------------------------------------------------------|
------------------------------------------------------------------|
--11--11----11--11b---11--9---------------------------------------|
--11--11----11--11b---11--9---------------------------------------|
-----------------------------|--11--11-11-11-11-11-11-11-11-11-11-11-11-11-11-|
-----------------------------|--9---9--9--9--9--9--9--9--9--9--9--9--9--9--9--|



-----------------------------------------------------------------|
-----------------------------------------------------------------|
--11--11----11b-11--9--------------------------------------------|
--11--11----11b-11--9----9---------------------------------------|
-------------------------9--|--11--11-11-11-11-11-11-11-11-11-11-11-11-11-11-|
----------------------------|--9---9--9--9--9--9--9--9--9--9--9--9--9--9--9--|



---------------------------------------------------------------|
---------------------------------------------------------------|
--9--9----9--11--9----11---------------------------------------|
--9--9----9--11--9----11---------------------------------------|
--------------------------|--11--11-11-11-11-11-11-11-11-11-11-11-11-11-11-|
--------------------------|--9---9--9--9--9--9--9--9--9--9--9--9--9--9--9--|



-----------------------------------------------------------------|
-----------------------------------------------------------------|
--11--11----11b-11--9--------------------------------------------|
--11--11----11b-11--9----9---------------------------------------|
-------------------------9--|--11--11-11-11-11-11-11-11-11-11-11-11-11-11-11-|
----------------------------|--9---9--9--9--9--9--9--9--9--9--9--9--9--9--9--|



----------------------------------------|
----------------------------------------|
----------------------------------------|
--7--------9---7---9--------------------|
--7--------9---7---9--4--------6--------|
--5--------7---5---7--|--5-----------------|--7-----------------|



-----------------------------------------|
-----------------------------------------|
-----------------------------------------|
---------------------------9----|--7-----------------|
---------------------|--9--------11---------7--------|
--9--------12----------------------------|



------------------------------------|
------------------------------------|
------------------------------------|
--9-------------9-------------------|
-----------9---------|--x-----------------------|
------------------------------------|



------------------------------------------------------|
------------------------------------------------------|
----------------------------|--9--9----8--9--8----9----9--8-------|
--11--11----9--11--9----11--|--9--9----8--9--8----9--|--9--9----9--9--8----9--|
--11--11----9--11--9----11---------------|--9--9----9----------9--|
------------------------------------------------------|



----------------------------------------------|
----------------------------------------------|
----------------------------------------------|
--11--11----9--11--9--9--10--|--11--11----9--11--9----11--|
--11--11----9--11--9--9--10--|--11--11----9--11--9----11--|
----------------------------------------------|



----------------------------------------------------|
----------------------------------------------------|
--9--9----8--9--8----9----9--8----------------------|
--9--9----8--9--8----9--|--9--9----9--9--8----9--|---------7-----------9----|
------------------------|--9--9----9----------9--|---------7-----------9----|
-------------------------------------|--5--5-5------7--7-7------|



------------------------------------------------------|
------------------------------------------------------|
----------------------------|--9--9----8--9--8----9----9--8-------|
--11--11----9--11--9----11--|--9--9----8--9--8----9--|--9--9----9--9--8----9--|
--11--11----9--11--9----11---------------|--9--9----9----------9--|
------------------------------------------------------|



----------------------------------------------|
----------------------------------------------|
----------------------------------------------|
--11--11----9--11--9--9--10--|--11--11----9--11--9----11--|
--11--11----9--11--9--9--10--|--11--11----9--11--9----11--|
----------------------------------------------|



----------------------------------------------|
----------------------------------------------|
--9--9----8--9--8----9----9--8----------------|
--9--9----8--9--8----9--|--9--9----9--9--8----9--|--7--------9--------|
------------------------|--9--9----9----------9--|--7--------9--------|
-------------------------------------|--5--------7--------|



----------------------------------------------|
----------------------------------------------|
--------------------------9--|--11--11----11b-11--9-------|
--11--11----9--11--9--11--9--|--11--11----11b-11--9----9--|
--11--11----9--11--9--11-------------------9--|
----------------------------------------------|



-----------------------------------------------|
-----------------------------------------------|
--------------------------9--|--11--11----11--11b---11--9--|
--11--11----9--11--9--11--9--|--11--11----11--11b---11--9--|
--11--11----9--11--9--11-----------------------|
-----------------------------------------------|



----------------------------------------------|
----------------------------------------------|
--------------------------9--|--11--11----11b-11--9-------|
--11--11----9--11--9--11--9--|--11--11----11b-11--9----9--|
--11--11----9--11--9--11-------------------9--|
----------------------------------------------|



-----------------------------------------------|
-----------------------------------------------|
--------------------------9--|--11--11----11--11b---11--9--|
--11--11----9--11--9--11--9--|--11--11----11--11b---11--9--|
--11--11----9--11--9--11-----------------------|
-----------------------------------------------|



-----------------------------------------------||
-----------------------------------------------||
-----------------------------------------------||
--11----------------|--9----10--11----9--9--10--|--11--------11/-------||
--11----------------|--9----10--11----9--9--10--|--11--------11/-------||
-------------------------------------9/--------||


GUITAR2


E--------------------|
B--------------------|
G---|---------12--11----10----9--|
D---|--9--11--12--11----10----9--|
A---|--9--11---------------------|
E--------------------|



---------------------------------------------|
---------------------------------------------|
---------12--11----10----9--|---------12--11----10----9--|
--9--11--12--11----10----9--|--9--11--12--11----10----9--|
--9--11---------------------|--9--11---------------------|
---------------------------------------------|



----------------------------------------------|
----------------------------------------------|
---------12--11----10----9-----------------9--|
--9--11--12--11----10----9--|--11--11----9--11--9--11--9--|
--9--11---------------------|--11--11----9--11--9--11-----|
----------------------------------------------|



----------------------------------------------|
----------------------------------------------|
--11--11----11b-11--9----------------------9--|
--11--11----11b-11--9----9--|--11--11----9--11--9--11--9--|
-------------------------9--|--11--11----9--11--9--11-----|
----------------------------------------------|



-----------------------------------------------|
-----------------------------------------------|
--11--11----11--11b---11--9-----------------9--|
--11--11----11--11b---11--9--|--11--11----9--11--9--11--9--|
-----------------------------|--11--11----9--11--9--11-----|
-----------------------------------------------|



----------------------------------------------|
----------------------------------------------|
--11--11----11b-11--9----------------------9--|
--11--11----11b-11--9----9--|--11--11----9--11--9--11--9--|
-------------------------9--|--11--11----9--11--9--11-----|
----------------------------------------------|



-----------------------------------------------|
-----------------------------------------------|
--11--11----11--11b---11--9-----------------9--|
--11--11----11--11b---11--9--|--11--11----9--11--9--11--9--|
-----------------------------|--11--11----9--11--9--11-----|
-----------------------------------------------|



----------------------------------------------|
----------------------------------------------|
--11--11----11b-11--9----------------------9--|
--11--11----11b-11--9----9--|--11--11----9--11--9--11--9--|
-------------------------9--|--11--11----9--11--9--11-----|
----------------------------------------------|



-----------------------------------------------|
-----------------------------------------------|
--11--11----11--11b---11--9-----------------9--|
--11--11----11--11b---11--9--|--11--11----9--11--9--11--9--|
-----------------------------|--11--11----9--11--9--11-----|
-----------------------------------------------|



----------------------------------------------|
----------------------------------------------|
--11--11----11b-11--9----------------------9--|
--11--11----11b-11--9----9--|--11--11----9--11--9--11--9--|
-------------------------9--|--11--11----9--11--9--11-----|
----------------------------------------------|



-------------------------------------------------------------------|
-------------------------------------------------------------------|
--11--11----11--11r--9-11--9---------------------------------------|
--11--11----11-----------------------------------------------------|
------------------------------|--11--11-11-11-11-11-11-11-11-11-11-11-11-11-11-|
------------------------------|--9---9--9--9--9--9--9--9--9--9--9--9--9--9--9--|



-----------------------------------------------------------------|
-----------------------------------------------------------------|
--11--11----11b-11--9--------------------------------------------|
--11--11----11b-11--9----9---------------------------------------|
-------------------------9--|--11--11-11-11-11-11-11-11-11-11-11-11-11-11-11-|
----------------------------|--9---9--9--9--9--9--9--9--9--9--9--9--9--9--9--|



---------------------------------------------------------------|
---------------------------------------------------------------|
--9--9----9--11--9----11---------------------------------------|
--9--9----9--11--9----11---------------------------------------|
--------------------------|--11--11-11-11-11-11-11-11-11-11-11-11-11-11-11-|
--------------------------|--9---9--9--9--9--9--9--9--9--9--9--9--9--9--9--|



-----------------------------------------------------------------|
-----------------------------------------------------------------|
--11--11----11b-11--9--------------------------------------------|
--11--11----11b-11--9----9---------------------------------------|
-------------------------9--|--11--11-11-11-11-11-11-11-11-11-11-11-11-11-11-|
----------------------------|--9---9--9--9--9--9--9--9--9--9--9--9--9--9--9--|



--------------------------------------------|
--------------------------------------------|
--9--9----9--11--9----11-----------------9--|
--9--9----9--11--9----11--|--11--11----9--11--9--11--9--|
--------------------------|--11--11----9--11--9--11-----|
--------------------------------------------|



----------------------------------------------|
----------------------------------------------|
--11--11----11b-11--9----------------------9--|
--11--11----11b-11--9----9--|--11--11----9--11--9--11--9--|
-------------------------9--|--11--11----9--11--9--11-----|
----------------------------------------------|



-----------------------------------------------|
-----------------------------------------------|
--11--11----11--11b---11--9-----------------9--|
--11--11----11--11b---11--9--|--11--11----9--11--9--11--9--|
-----------------------------|--11--11----9--11--9--11-----|
-----------------------------------------------|



----------------------------------------------|
----------------------------------------------|
--11--11----11b-11--9----------------------9--|
--11--11----11b-11--9----9--|--11--11----9--11--9--11--9--|
-------------------------9--|--11--11----9--11--9--11-----|
----------------------------------------------|



-------------------------------|
-------------------------------|
--11r--9-11--9-----------------|
----------------11--10--9------|
---------------------------11--|
-------------------------------|



-----------------------------------------------------------------|
-----------------------------------------------------------------|
------------------------------------------------|--11--11----11b-11--9-------|
------------------------------------------------|--11--11----11b-11--9----9--|
--11--11-11-11-11-11-11-11-11-11-11-11-11-11-11---------------9--|
--9---9--9--9--9--9--9--9--9--9--9--9--9--9--9-------------------|



---------------------------------------------------------------|
---------------------------------------------------------------|
------------------------------------------------|--9--9----9--11--9----11--|
------------------------------------------------|--9--9----9--11--9----11--|
--11--11-11-11-11-11-11-11-11-11-11-11-11-11-11----------------|
--9---9--9--9--9--9--9--9--9--9--9--9--9--9--9-----------------|



-----------------------------------------------------------------|
-----------------------------------------------------------------|
------------------------------------------------|--11--11----11b-11--9-------|
------------------------------------------------|--11--11----11b-11--9----9--|
--11--11-11-11-11-11-11-11-11-11-11-11-11-11-11---------------9--|
--9---9--9--9--9--9--9--9--9--9--9--9--9--9--9-------------------|



-------------------------------------------------------------|
-------------------------------------------------------------|
-------------------------------------------------------------|
------------------------------------------------|--7--7----7--9--7----9--|
--11--11-11-11-11-11-11-11-11-11-11-11-11-11-11-|--7--7----7--9--7----9--|
--9---9--9--9--9--9--9--9--9--9--9--9--9--9--9---------------|



--------------------------------------------|
--------------------------------------------|
--------------------------------------------|
--------11----------11--12--|--------11----------9--10--|
--------11----------11--12--|--------11----------9--10--|
--9--9--------9--9----------|--9--9--------9--9---------|



----------------------------------------------|
----------------------------------------------|
----------------------------------------------|
--------11----------11--12--|--------11-------12--12--12--|
--------11----------11--12--|--------11-------12--12--12--|
--9--9--------9--9----------|--9--9--------9--------------|



----------------------------------------------------|
----------------------------------------------------|
----------------------------------------------------|
----------11------------11--12--|----------11------------9--10--|
----------11------------11--12--|----------11------------9--10--|
--9-9-9-9-------9-9-9-9---------|--9-9-9-9-------9-9-9-9--------|



-------------------------------------------------------|
-------------------------------------------------------|
-------------------------------------------------------|
----------11------------11--12--|-----11------11---9---8-----------|
----------11------------11--12--|-----11------11---9---8--|--4--------7--------|
--9-9-9-9-------9-9-9-9---------|--9----------9----7---6-----------|



---------------------------------------|
---------------------------------------|
----------------------------------8----|
--------------------6--------|--7--------9---------|
--6--------9--------|--7---------------------------|
---------------------------------------|



--------------------------------------|
--------------------------------------|
--6-----------------|--8-------------8------------|
-----------7--------9-----------------|
------------------------------|--x----------------|
--------------------------------------|



------------------------------------------------|
------------------------------------------------|
-----------------------------------|--9--9----8--9--8----9--|
------------------|--11--11----9--11--9----11--|--9--9----8--9--8----9--|
------------------|--11--11----9--11--9----11---------------|
------------------------------------------------|



------------------------------------------|
------------------------------------------|
-------------9--8-------------------------|
--9--9----9--9--8----9--|--11--11----9--11--9--9--10--|
--9--9----9----------9--|--11--11----9--11--9--9--10--|
------------------------------------------|



------------------------------------------------------|
------------------------------------------------------|
----------------------------|--9--9----8--9--8----9----9--8-------|
--11--11----9--11--9----11--|--9--9----8--9--8----9--|--9--9----9--9--8----9--|
--11--11----9--11--9----11---------------|--9--9----9----------9--|
------------------------------------------------------|



-------------------------------------------|
-------------------------------------------|
-------------------------------------------|
---------7-----------9----|--11--11----9--11--9----11--|
---------7-----------9----|--11--11----9--11--9----11--|
--5--5-5------7--7-7-----------------------|



-------------------------------------------------------|
-------------------------------------------------------|
--9--9----8--9--8----9----9--8-------------------------|
--9--9----8--9--8----9--|--9--9----9--9--8----9--|--11--11----9--11--9--9--10--|
------------------------|--9--9----9----------9--|--11--11----9--11--9--9--10--|
-------------------------------------------------------|



------------------------------------------------------|
------------------------------------------------------|
----------------------------|--9--9----8--9--8----9----9--8-------|
--11--11----9--11--9----11--|--9--9----8--9--8----9--|--9--9----9--9--8----9--|
--11--11----9--11--9----11---------------|--9--9----9----------9--|
------------------------------------------------------|



-------------------------------------------------------|
-------------------------------------------------------|
-----------------------------------9--|--11--11----11b-11--9-------|
--7--------9--------|--11--11----9--11--9--11--9--|--11--11----11b-11--9----9--|
--7--------9--------|--11--11----9--11--9--11-------------------9--|
--5--------7-------------------------------------------|



-----------------------------------------------|
-----------------------------------------------|
--------------------------9--|--11--11----11--11b---11--9--|
--11--11----9--11--9--11--9--|--11--11----11--11b---11--9--|
--11--11----9--11--9--11-----------------------|
-----------------------------------------------|



----------------------------------------------|
----------------------------------------------|
--------------------------9--|--11--11----11b-11--9-------|
--11--11----9--11--9--11--9--|--11--11----11b-11--9----9--|
--11--11----9--11--9--11-------------------9--|
----------------------------------------------|



--------------------------------------------------------|
--------------------------------------------------------|
--------------------------9-----------------------------|
--11--11----9--11--9--11--9--|--11-11--12-12--13-13--14-14--15--16--|
--11--11----9--11--9--11-----|--11-11--12-12--13-13--14-14--15--16--|
--------------------------------------------------------|



---------------------------------------------------|
---------------------------------------------------|
----------------------------15--|--17--17----17b-17--15--------|
--17--17----15--17--15--17--15--|--17--17----17b-17--15----15--|
--17--17----15--17--15--17---------------------15--|
---------------------------------------------------|



---------------------------------------------------|
---------------------------------------------------|
----------------------------15---------------------|
--17--17----15--17--15--17--15--|--10---10---10--11---11---11--|
--17--17----15--17--15--17------|--10---10---10--11---11---11--|
--------------------------------|--8----8----8---9----9----9---|



---------------------------------------------------|
---------------------------------------------------|
----------------------------10--|--12--12----12b-12--10--------|
--12--12----10--12--10--12--10--|--12--12----12b-12--10----10--|
--12--12----10--12--10--12---------------------10--|
---------------------------------------------------|



---------------------------------------------------|
---------------------------------------------------|
----------------------------10--|--12--12----12--12b---12--10--|
--12--12----10--12--10--12--10--|--12--12----12--12b---12--10--|
--12--12----10--12--10--12-------------------------|
---------------------------------------------------|



---------------------------------------------------|
---------------------------------------------------|
----------------------------10--|--12--12----12b-12--10--------|
--12--12----10--12--10--12--10--|--12--12----12b-12--10----10--|
--12--12----10--12--10--12---------------------10--|
---------------------------------------------------|



-----------------------------------------------|
-----------------------------------------------|
----------------------------10-----10--12--10--|
--12--12----10--12--10--12--10--|----------12--------------|
--12--12----10--12--10--12---------------------|
-----------------------------------------------|



----------------------------------------------|
------10--13h10-10-10-15h10-10-10-16h10-10-10-|
--12b-----------------------------------------|
----------------------------------------------|
----------------------------------------------|
----------------------------------------------|



--------------------------------------------------|
--13h10-10-10-15h10-10-10-13h10-10-10-15h10-10-10-|
--------------------------------------------------|
--------------------------------------------------|
--------------------------------------------------|
--------------------------------------------------|



----------------------------------------------|
------10--13h10-10-10-15h10-10-10-16h10-10-10-|
--12b-----------------------------------------|
----------------------------------------------|
----------------------------------------------|
----------------------------------------------|



--------------------------------------------------|
--17h10-10-10-16h10-10-10-15h10-10-10-13h10-10-10-|
--------------------------------------------------|
--------------------------------------------------|
--------------------------------------------------|
--------------------------------------------------|



----------------------------------------------|
------10--13h10-10-10-15h10-10-10-16h10-10-10-|
--12b-----------------------------------------|
----------------------------------------------|
----------------------------------------------|
----------------------------------------------|



--------------------------------------------------|
--15h10-10-10-13h10-10-10-15h10-10-10-13h10-10-10-|
--------------------------------------------------|
--------------------------------------------------|
--------------------------------------------------|
--------------------------------------------------|



---------------------------------------|--15b---16--17b---16--17--18--|
--1-2-3-4-5-6-7-8-9-10-11-12-13-14-15--|--18b---19b-20b---------------|
----------------------------------------------------------|
----------------------------------------------------------|
----------------------------------------------------------|
----------------------------------------------------------|



--15--------15---17---19--|--15--------15---17---19--|
--18b------------------------------------|
-----------------------------------------|
-----------------------------------------|
-----------------------------------------|
-----------------------------------------|



--22---20---19-------19---20--|--19----------------------|
----------------22------------|-------22---20--19--------|
---------------------------------------------|
---------------------------------------------|
---------------------------------------------|
---------------------------------------------|

©2007-2015 Пуск!by | contextus@mail.ru